  0
SECTION
  2
HEADER
  9
$ACADVER
  1
AC1018
  9
$ACADMAINTVER
 70
     0
  9
$DWGCODEPAGE
  3
ASCII
  9
$INSBASE
 10
0.0
 20
0.0
 30
0.0
  9
$EXTMIN
 10
1.000000000000000E+20
 20
1.000000000000000E+20
 30
1.000000000000000E+20
  9
$EXTMAX
 10
-1.000000000000000E+20
 20
-1.000000000000000E+20
 30
-1.000000000000000E+20
  9
$LIMMIN
 10
0.0
 20
0.0
  9
$LIMMAX
 10
12.0
 20
9.0
  9
$ORTHOMODE
 70
     0
  9
$REGENMODE
 70
     1
  9
$FILLMODE
 70
     1
  9
$QTEXTMODE
 70
     0
  9
$MIRRTEXT
 70
     1
  9
$LTSCALE
 40
1.0
  9
$ATTMODE
 70
     1
  9
$TEXTSIZE
 40
0.2
  9
$TRACEWID
 40
0.05
  9
$TEXTSTYLE
  7
Standard
  9
$CLAYER
  8
0
  9
$CELTYPE
  6
ByLayer
  9
$CECOLOR
 62
   256
  9
$CELTSCALE
 40
1.0
  9
$DISPSILH
 70
     0
  9
$DIMSCALE
 40
1.0
  9
$DIMASZ
 40
0.18
  9
$DIMEXO
 40
0.0625
  9
$DIMDLI
 40
0.38
  9
$DIMRND
 40
0.0
  9
$DIMDLE
 40
0.0
  9
$DIMEXE
 40
0.18
  9
$DIMTP
 40
0.0
  9
$DIMTM
 40
0.0
  9
$DIMTXT
 40
0.18
  9
$DIMCEN
 40
0.09
  9
$DIMTSZ
 40
0.0
  9
$DIMTOL
 70
     0
  9
$DIMLIM
 70
     0
  9
$DIMTIH
 70
     1
  9
$DIMTOH
 70
     1
  9
$DIMSE1
 70
     0
  9
$DIMSE2
 70
     0
  9
$DIMTAD
 70
     0
  9
$DIMZIN
 70
     0
  9
$DIMBLK
  1

  9
$DIMASO
 70
     1
  9
$DIMSHO
 70
     1
  9
$DIMPOST
  1

  9
$DIMAPOST
  1

  9
$DIMALT
 70
     0
  9
$DIMALTD
 70
     2
  9
$DIMALTF
 40
25.4
  9
$DIMLFAC
 40
1.0
  9
$DIMTOFL
 70
     0
  9
$DIMTVP
 40
0.0
  9
$DIMTIX
 70
     0
  9
$DIMSOXD
 70
     0
  9
$DIMSAH
 70
     0
  9
$DIMBLK1
  1

  9
$DIMBLK2
  1

  9
$DIMSTYLE
  2
Standard
  9
$DIMCLRD
 70
     0
  9
$DIMCLRE
 70
     0
  9
$DIMCLRT
 70
     0
  9
$DIMTFAC
 40
1.0
  9
$DIMGAP
 40
0.09
  9
$DIMJUST
 70
     0
  9
$DIMSD1
 70
     0
  9
$DIMSD2
 70
     0
  9
$DIMTOLJ
 70
     1
  9
$DIMTZIN
 70
     0
  9
$DIMALTZ
 70
     0
  9
$DIMALTTZ
 70
     0
  9
$DIMUPT
 70
     0
  9
$DIMDEC
 70
     4
  9
$DIMTDEC
 70
     4
  9
$DIMALTU
 70
     2
  9
$DIMALTTD
 70
     2
  9
$DIMTXSTY
  7
Standard
  9
$DIMAUNIT
 70
     0
  9
$DIMADEC
 70
     0
  9
$DIMALTRND
 40
0.0
  9
$DIMAZIN
 70
     0
  9
$DIMDSEP
 70
    46
  9
$DIMATFIT
 70
     3
  9
$DIMFRAC
 70
     0
  9
$DIMLDRBLK
  1

  9
$DIMLUNIT
 70
     2
  9
$DIMLWD
 70
    -2
  9
$DIMLWE
 70
    -2
  9
$DIMTMOVE
 70
     0
  9
$LUNITS
 70
     2
  9
$LUPREC
 70
     4
  9
$SKETCHINC
 40
0.1
  9
$FILLETRAD
 40
0.5
  9
$AUNITS
 70
     0
  9
$AUPREC
 70
     0
  9
$MENU
  1
.
  9
$ELEVATION
 40
0.0
  9
$PELEVATION
 40
0.0
  9
$THICKNESS
 40
0.0
  9
$LIMCHECK
 70
     0
  9
$CHAMFERA
 40
0.5
  9
$CHAMFERB
 40
0.5
  9
$CHAMFERC
 40
1.0
  9
$CHAMFERD
 40
0.0
  9
$SKPOLY
 70
     0
  9
$TDCREATE
 40
2457171.58334081
  9
$TDUCREATE
 40
2457171.500007477
  9
$TDUPDATE
 40
2457171.583340822
  9
$TDUUPDATE
 40
2457171.500007488
  9
$TDINDWG
 40
0.0000000116
  9
$TDUSRTIMER
 40
0.0000000116
  9
$USRTIMER
 70
     1
  9
$ANGBASE
 50
0.0
  9
$ANGDIR
 70
     0
  9
$PDMODE
 70
     0
  9
$PDSIZE
 40
0.0
  9
$PLINEWID
 40
0.0
  9
$SPLFRAME
 70
     0
  9
$SPLINETYPE
 70
     6
  9
$SPLINESEGS
 70
     8
  9
$HANDSEED
  5
D0
  9
$SURFTAB1
 70
     6
  9
$SURFTAB2
 70
     6
  9
$SURFTYPE
 70
     6
  9
$SURFU
 70
     6
  9
$SURFV
 70
     6
  9
$UCSBASE
  2

  9
$UCSNAME
  2

  9
$UCSORG
 10
0.0
 20
0.0
 30
0.0
  9
$UCSXDIR
 10
1.0
 20
0.0
 30
0.0
  9
$UCSYDIR
 10
0.0
 20
1.0
 30
0.0
  9
$UCSORTHOREF
  2

  9
$UCSORTHOVIEW
 70
     0
  9
$UCSORGTOP
 10
0.0
 20
0.0
 30
0.0
  9
$UCSORGBOTTOM
 10
0.0
 20
0.0
 30
0.0
  9
$UCSORGLEFT
 10
0.0
 20
0.0
 30
0.0
  9
$UCSORGRIGHT
 10
0.0
 20
0.0
 30
0.0
  9
$UCSORGFRONT
 10
0.0
 20
0.0
 30
0.0
  9
$UCSORGBACK
 10
0.0
 20
0.0
 30
0.0
  9
$PUCSBASE
  2

  9
$PUCSNAME
  2

  9
$PUCSORG
 10
0.0
 20
0.0
 30
0.0
  9
$PUCSXDIR
 10
1.0
 20
0.0
 30
0.0
  9
$PUCSYDIR
 10
0.0
 20
1.0
 30
0.0
  9
$PUCSORTHOREF
  2

  9
$PUCSORTHOVIEW
 70
     0
  9
$PUCSORGTOP
 10
0.0
 20
0.0
 30
0.0
  9
$PUCSORGBOTTOM
 10
0.0
 20
0.0
 30
0.0
  9
$PUCSORGLEFT
 10
0.0
 20
0.0
 30
0.0
  9
$PUCSORGRIGHT
 10
0.0
 20
0.0
 30
0.0
  9
$PUCSORGFRONT
 10
0.0
 20
0.0
 30
0.0
  9
$PUCSORGBACK
 10
0.0
 20
0.0
 30
0.0
  9
$USERI1
 70
     0
  9
$USERI2
 70
     0
  9
$USERI3
 70
     0
  9
$USERI4
 70
     0
  9
$USERI5
 70
     0
  9
$USERR1
 40
0.0
  9
$USERR2
 40
0.0
  9
$USERR3
 40
0.0
  9
$USERR4
 40
0.0
  9
$USERR5
 40
0.0
  9
$WORLDVIEW
 70
     1
  9
$SHADEDGE
 70
     3
  9
$SHADEDIF
 70
    70
  9
$TILEMODE
 70
     1
  9
$MAXACTVP
 70
    64
  9
$PINSBASE
 10
0.0
 20
0.0
 30
0.0
  9
$PLIMCHECK
 70
     0
  9
$PEXTMIN
 10
1.000000000000000E+20
 20
1.000000000000000E+20
 30
1.000000000000000E+20
  9
$PEXTMAX
 10
-1.000000000000000E+20
 20
-1.000000000000000E+20
 30
-1.000000000000000E+20
  9
$PLIMMIN
 10
0.0
 20
0.0
  9
$PLIMMAX
 10
12.0
 20
9.0
  9
$UNITMODE
 70
     0
  9
$VISRETAIN
 70
     1
  9
$PLINEGEN
 70
     0
  9
$PSLTSCALE
 70
     1
  9
$TREEDEPTH
 70
  3020
  9
$CMLSTYLE
  2
Standard
  9
$CMLJUST
 70
     0
  9
$CMLSCALE
 40
1.0
  9
$PROXYGRAPHICS
 70
     1
  9
$MEASUREMENT
 70
     0
  9
$CELWEIGHT
370
    -1
  9
$ENDCAPS
280
     0
  9
$JOINSTYLE
280
     0
  9
$LWDISPLAY
290
     1
  9
$INSUNITS
 70
     1
  9
$HYPERLINKBASE
  1

  9
$STYLESHEET
  1

  9
$XEDIT
290
     1
  9
$CEPSNTYPE
380
     0
  9
$PSTYLEMODE
290
     1
  9
$FINGERPRINTGUID
  2
{5D46A4E6-CDEA-4D31-9CFC-0DDEA1261FC5}
  9
$VERSIONGUID
  2
{FAEB1C32-E019-11D5-929B-00C0DF256EC4}
  9
$EXTNAMES
290
     1
  9
$PSVPSCALE
 40
0.0
  9
$OLESTARTUP
290
     0
  9
$SORTENTS
280
   127
  9
$INDEXCTL
280
     0
  9
$HIDETEXT
280
     1
  9
$XCLIPFRAME
290
     0
  9
$HALOGAP
280
     0
  9
$OBSCOLOR
 70
   257
  9
$OBSLTYPE
280
     0
  9
$INTERSECTIONDISPLAY
280
     0
  9
$INTERSECTIONCOLOR
 70
   257
  9
$DIMASSOC
280
     2
  9
$PROJECTNAME
  1

  0
ENDSEC
  0
SECTION
  2
CLASSES
  0
CLASS
  1
ACDBDICTIONARYWDFLT
  2
AcDbDictionaryWithDefault
  3
ObjectDBX Classes
 90
        0
 91
        3
280
     0
281
     0
  0
CLASS
  1
VISUALSTYLE
  2
AcDbVisualStyle
  3
ObjectDBX Classes
 90
     4095
 91
        3
280
     0
281
     0
  0
ENDSEC
  0
SECTION
  2
TABLES
  0
TABLE
  2
VPORT
  5
8
330
0
100
AcDbSymbolTable
 70
     1
  0
VPORT
  5
29
330
8
100
AcDbSymbolTableRecord
100
AcDbViewportTableRecord
  2
*Active
 70
     0
 10
0.0
 20
0.0
 11
1.0
 21
1.0
 12
0.0
 22
0.0
 13
0.0
 23
0.0
 14
0.5
 24
0.5
 15
0.5
 25
0.5
 16
0.0
 26
0.0
 36
1.0
 17
-259.5002660695852
 27
31.99927376016345
 37
0.0
 40
144.5332680004627
 41
3.663312319022044
 42
50.0
 43
0.0
 44
0.0
 50
0.0
 51
0.0
 71
     0
 72
   100
 73
     1
 74
     3
 75
     0
 76
     0
 77
     0
 78
     0
281
     0
 65
     1
110
0.0
120
0.0
130
0.0
111
1.0
121
0.0
131
0.0
112
0.0
122
1.0
132
0.0
 79
     0
146
0.0
  0
ENDTAB
  0
TABLE
  2
LTYPE
  5
5
330
0
100
AcDbSymbolTable
 70
     1
  0
LTYPE
  5
14
330
5
100
AcDbSymbolTableRecord
100
AcDbLinetypeTableRecord
  2
ByBlock
 70
     0
  3

 72
    65
 73
     0
 40
0.0
  0
LTYPE
  5
15
330
5
100
AcDbSymbolTableRecord
100
AcDbLinetypeTableRecord
  2
ByLayer
 70
     0
  3

 72
    65
 73
     0
 40
0.0
  0
LTYPE
  5
16
330
5
100
AcDbSymbolTableRecord
100
AcDbLinetypeTableRecord
  2
Continuous
 70
     0
  3
Solid line
 72
    65
 73
     0
 40
0.0
  0
ENDTAB
  0
TABLE
  2
LAYER
  5
2
330
0
100
AcDbSymbolTable
 70
     2
  0
LAYER
  5
10
330
2
100
AcDbSymbolTableRecord
100
AcDbLayerTableRecord
  2
0
 70
     0
 62
     7
  6
Continuous
370
    -3
390
F
  0
LAYER
  5
3B
330
2
100
AcDbSymbolTableRecord
100
AcDbLayerTableRecord
  2
Coordonn\U+00E9es
 70
     0
 62
     7
  6
Continuous
370
    -3
390
F
  0
ENDTAB
  0
TABLE
  2
STYLE
  5
3
330
0
100
AcDbSymbolTable
 70
     1
  0
STYLE
  5
11
330
3
100
AcDbSymbolTableRecord
100
AcDbTextStyleTableRecord
  2
Standard
 70
     0
 40
0.0
 41
1.0
 50
0.0
 71
     0
 42
0.2
  3
txt
  4

  0
ENDTAB
  0
TABLE
  2
VIEW
  5
6
330
0
100
AcDbSymbolTable
 70
     0
  0
ENDTAB
  0
TABLE
  2
UCS
  5
7
330
0
100
AcDbSymbolTable
 70
     0
  0
ENDTAB
  0
TABLE
  2
APPID
  5
9
330
0
100
AcDbSymbolTable
 70
     1
  0
APPID
  5
12
330
9
100
AcDbSymbolTableRecord
100
AcDbRegAppTableRecord
  2
ACAD
 70
     0
  0
ENDTAB
  0
TABLE
  2
DIMSTYLE
  5
A
330
0
100
AcDbSymbolTable
 70
     1
100
AcDbDimStyleTable
  0
DIMSTYLE
105
27
330
A
100
AcDbSymbolTableRecord
100
AcDbDimStyleTableRecord
  2
Standard
 70
     0
340
11
  0
ENDTAB
  0
TABLE
  2
BLOCK_RECORD
  5
1
330
0
100
AcDbSymbolTable
 70
    12
  0
BLOCK_RECORD
  5
1F
330
1
100
AcDbSymbolTableRecord
100
AcDbBlockTableRecord
  2
*Model_Space
340
22
  0
BLOCK_RECORD
  5
1B
330
1
100
AcDbSymbolTableRecord
100
AcDbBlockTableRecord
  2
*Paper_Space
340
1E
  0
BLOCK_RECORD
  5
23
330
1
100
AcDbSymbolTableRecord
100
AcDbBlockTableRecord
  2
*Paper_Space0
340
26
  0
BLOCK_RECORD
  5
3C
330
1
100
AcDbSymbolTableRecord
100
AcDbBlockTableRecord
  2
block 2
340
0
102
{BLKREFS
331
3D
102
}
  0
BLOCK_RECORD
  5
40
330
1
100
AcDbSymbolTableRecord
100
AcDbBlockTableRecord
  2
block 3
340
0
102
{BLKREFS
331
41
102
}
  0
BLOCK_RECORD
  5
4B
330
1
100
AcDbSymbolTableRecord
100
AcDbBlockTableRecord
  2
block 4
340
0
102
{BLKREFS
331
4C
102
}
  0
BLOCK_RECORD
  5
51
330
1
100
AcDbSymbolTableRecord
100
AcDbBlockTableRecord
  2
block 5
340
0
102
{BLKREFS
331
52
102
}
  0
BLOCK_RECORD
  5
55
330
1
100
AcDbSymbolTableRecord
100
AcDbBlockTableRecord
  2
block 6
340
0
102
{BLKREFS
331
56
102
}
  0
BLOCK_RECORD
  5
5B
330
1
100
AcDbSymbolTableRecord
100
AcDbBlockTableRecord
  2
block 7
340
0
102
{BLKREFS
331
5C
102
}
  0
BLOCK_RECORD
  5
5F
330
1
100
AcDbSymbolTableRecord
100
AcDbBlockTableRecord
  2
block 8
340
0
102
{BLKREFS
331
60
102
}
  0
BLOCK_RECORD
  5
6A
330
1
100
AcDbSymbolTableRecord
100
AcDbBlockTableRecord
  2
block 9
340
0
102
{BLKREFS
331
6B
102
}
  0
BLOCK_RECORD
  5
70
330
1
100
AcDbSymbolTableRecord
100
AcDbBlockTableRecord
  2
block 10
340
0
102
{BLKREFS
331
71
102
}
  0
BLOCK_RECORD
  5
74
330
1
100
AcDbSymbolTableRecord
100
AcDbBlockTableRecord
  2
block 11
340
0
102
{BLKREFS
331
75
102
}
  0
BLOCK_RECORD
  5
7A
330
1
100
AcDbSymbolTableRecord
100
AcDbBlockTableRecord
  2
block 12
340
0
102
{BLKREFS
331
7B
102
}
  0
ENDTAB
  0
ENDSEC
  0
SECTION
  2
BLOCKS
  0
BLOCK
  5
20
330
1F
100
AcDbEntity
  8
0
100
AcDbBlockBegin
  2
*Model_Space
 70
     0
 71
     0
 10
0.0
 20
0.0
 30
0.0
  3
*Model_Space
  1

  0
ENDBLK
  5
21
330
1F
100
AcDbEntity
  8
0
100
AcDbBlockEnd
  0
BLOCK
  5
1C
330
1B
100
AcDbEntity
 67
     1
  8
0
100
AcDbBlockBegin
  2
*Paper_Space
 70
     0
 71
     0
 10
0.0
 20
0.0
 30
0.0
  3
*Paper_Space
  1

  0
ENDBLK
  5
1D
330
1B
100
AcDbEntity
 67
     1
  8
0
100
AcDbBlockEnd
  0
BLOCK
  5
24
330
23
100
AcDbEntity
  8
0
100
AcDbBlockBegin
  2
*Paper_Space0
 70
     0
 71
     0
 10
0.0
 20
0.0
 30
0.0
  3
*Paper_Space0
  1

  0
ENDBLK
  5
25
330
23
100
AcDbEntity
  8
0
100
AcDbBlockEnd
  0
BLOCK
  5
3E
330
3C
100
AcDbEntity
  8
0
100
AcDbBlockBegin
  2
block 2
 70
     0
 71
     0
 10
0.0
 20
0.0
 30
0.0
  3
block 2
  1

  0
INSERT
  5
41
330
3C
100
AcDbEntity
  8
Coordonn\U+00E9es
100
AcDbBlockReference
  2
block 3
 10
0.0
 20
0.0
 30
0.0
  0
INSERT
  5
4C
330
3C
100
AcDbEntity
  8
Coordonn\U+00E9es
100
AcDbBlockReference
  2
block 4
 10
0.0
 20
0.0
 30
0.0
  0
INSERT
  5
52
330
3C
100
AcDbEntity
  8
Coordonn\U+00E9es
100
AcDbBlockReference
  2
block 5
 10
0.0
 20
0.0
 30
0.0
  0
INSERT
  5
56
330
3C
100
AcDbEntity
  8
Coordonn\U+00E9es
100
AcDbBlockReference
  2
block 6
 10
0.0
 20
0.0
 30
0.0
  0
ENDBLK
  5
3F
330
3C
100
AcDbEntity
  8
0
100
AcDbBlockEnd
  0
BLOCK
  5
42
330
40
100
AcDbEntity
  8
0
100
AcDbBlockBegin
  2
block 3
 70
     0
 71
     0
 10
0.0
 20
0.0
 30
0.0
  3
block 3
  1

  0
POLYLINE
  5
44
330
40
100
AcDbEntity
  8
Coordonn\U+00E9es
 62
     7
420
 16777215
370
     9
100
AcDb2dPolyline
 66
     1
 10
0.0
 20
0.0
 30
0.0
  0
VERTEX
  5
45
330
44
100
AcDbEntity
  8
Coordonn\U+00E9es
 62
     7
420
 16777215
370
     9
100
AcDbVertex
100
AcDb2dVertex
 10
0.0
 20
-38.80627016523205
 30
0.0
  0
VERTEX
  5
46
330
44
100
AcDbEntity
  8
Coordonn\U+00E9es
 62
     7
420
 16777215
370
     9
100
AcDbVertex
100
AcDb2dVertex
 10
-519.0005321391704
 20
-38.80627016523205
 30
0.0
  0
VERTEX
  5
47
330
44
100
AcDbEntity
  8
Coordonn\U+00E9es
 62
     7
420
 16777215
370
     9
100
AcDbVertex
100
AcDb2dVertex
 10
-519.0005321391704
 20
25.19399990397383
 30
0.0
  0
VERTEX
  5
48
330
44
100
AcDbEntity
  8
Coordonn\U+00E9es
 62
     7
420
 16777215
370
     9
100
AcDbVertex
100
AcDb2dVertex
 10
0.0
 20
25.19399990397383
 30
0.0
  0
VERTEX
  5
49
330
44
100
AcDbEntity
  8
Coordonn\U+00E9es
 62
     7
420
 16777215
370
     9
100
AcDbVertex
100
AcDb2dVertex
 10
0.0
 20
-38.80627016523205
 30
0.0
  0
SEQEND
  5
4A
330
44
100
AcDbEntity
  8
Coordonn\U+00E9es
370
     9
  0
ENDBLK
  5
43
330
40
100
AcDbEntity
  8
0
100
AcDbBlockEnd
  0
BLOCK
  5
4D
330
4B
100
AcDbEntity
  8
0
100
AcDbBlockBegin
  2
block 4
 70
     0
 71
     0
 10
0.0
 20
0.0
 30
0.0
  3
block 4
  1

  0
SPLINE
  5
4F
330
4B
100
AcDbEntity
  8
Coordonn\U+00E9es
 62
     7
420
 16777215
370
     9
100
AcDbSpline
210
0.0
220
0.0
230
1.0
 70
    11
 71
     3
 72
    14
 73
    10
 74
     0
 42
0.0000000001
 43
0.0000000001
 40
0.0
 40
0.0
 40
0.0
 40
0.0
 40
1.0
 40
1.0
 40
1.0
 40
2.0
 40
2.0
 40
2.0
 40
3.0
 40
3.0
 40
3.0
 40
3.0
 10
-459.9772225460039
 20
13.17233127756652
 30
0.0
 10
-459.9772225460039
 20
13.17233127756652
 30
0.0
 10
-459.9772225460039
 20
-27.02369132322728
 30
0.0
 10
-459.9772225460039
 20
-27.02369132322728
 30
0.0
 10
-459.9772225460039
 20
-27.02369132322728
 30
0.0
 10
-463.0225167091541
 20
-17.73639678731416
 30
0.0
 10
-478.0455545022976
 20
-19.56333212836124
 30
0.0
 10
-467.1335518637298
 20
-6.621477890802365
 30
0.0
 10
-460.4848577006395
 20
12.20804841511304
 30
0.0
 10
-459.9772225460039
 20
13.17233127756652
 30
0.0
  0
SPLINE
  5
50
330
4B
100
AcDbEntity
  8
Coordonn\U+00E9es
 62
     7
420
 16777215
370
     9
100
AcDbSpline
210
0.0
220
0.0
230
1.0
 70
    11
 71
     3
 72
    14
 73
    10
 74
     0
 42
0.0000000001
 43
0.0000000001
 40
0.0
 40
0.0
 40
0.0
 40
0.0
 40
1.0
 40
1.0
 40
1.0
 40
2.0
 40
2.0
 40
2.0
 40
3.0
 40
3.0
 40
3.0
 40
3.0
 10
-458.0233353525759
 20
13.17233127756652
 30
0.0
 10
-458.0233353525759
 20
13.17233127756652
 30
0.0
 10
-458.0233353525759
 20
-27.02369132322728
 30
0.0
 10
-458.0233353525759
 20
-27.02369132322728
 30
0.0
 10
-458.0233353525759
 20
-27.02369132322728
 30
0.0
 10
-454.9782134443136
 20
-17.73639678731416
 30
0.0
 10
-439.9553479060579
 20
-19.56333212836124
 30
0.0
 10
-450.8671782897379
 20
-6.621477890802365
 30
0.0
 10
-457.5158724528281
 20
12.20804841511304
 30
0.0
 10
-458.0233353525759
 20
13.17233127756652
 30
0.0
  0
ENDBLK
  5
4E
330
4B
100
AcDbEntity
  8
0
100
AcDbBlockEnd
  0
BLOCK
  5
53
330
51
100
AcDbEntity
  8
0
100
AcDbBlockBegin
  2
block 5
 70
     0
 71
     0
 10
0.0
 20
0.0
 30
0.0
  3
block 5
  1

  0
ENDBLK
  5
54
330
51
100
AcDbEntity
  8
0
100
AcDbBlockEnd
  0
BLOCK
  5
57
330
55
100
AcDbEntity
  8
0
100
AcDbBlockBegin
  2
block 6
 70
     0
 71
     0
 10
0.0
 20
0.0
 30
0.0
  3
block 6
  1

  0
SPLINE
  5
59
330
55
100
AcDbEntity
  8
Coordonn\U+00E9es
 62
     7
420
 16777215
370
     9
100
AcDbSpline
210
0.0
220
0.0
230
1.0
 70
    11
 71
     3
 72
    14
 73
    10
 74
     0
 42
0.0000000001
 43
0.0000000001
 40
0.0
 40
0.0
 40
0.0
 40
0.0
 40
1.0
 40
1.0
 40
1.0
 40
2.0
 40
2.0
 40
2.0
 40
3.0
 40
3.0
 40
3.0
 40
3.0
 10
-60.9768522768187
 20
13.17233127756652
 30
0.0
 10
-60.9768522768187
 20
13.17233127756652
 30
0.0
 10
-60.9768522768187
 20
-27.02369132322728
 30
0.0
 10
-60.9768522768187
 20
-27.02369132322728
 30
0.0
 10
-60.9768522768187
 20
-27.02369132322728
 30
0.0
 10
-64.02231869485684
 20
-17.73639678731416
 30
0.0
 10
-79.04501197822458
 20
-19.56333212836124
 30
0.0
 10
-68.13300933965672
 20
-6.621477890802365
 30
0.0
 10
-61.48431517656645
 20
12.20804841511304
 30
0.0
 10
-60.9768522768187
 20
13.17233127756652
 30
0.0
  0
SPLINE
  5
5A
330
55
100
AcDbEntity
  8
Coordonn\U+00E9es
 62
     7
420
 16777215
370
     9
100
AcDbSpline
210
0.0
220
0.0
230
1.0
 70
    11
 71
     3
 72
    14
 73
    10
 74
     0
 42
0.0000000001
 43
0.0000000001
 40
0.0
 40
0.0
 40
0.0
 40
0.0
 40
1.0
 40
1.0
 40
1.0
 40
2.0
 40
2.0
 40
2.0
 40
3.0
 40
3.0
 40
3.0
 40
3.0
 10
-59.02279282850283
 20
13.17233127756652
 30
0.0
 10
-59.02279282850283
 20
13.17233127756652
 30
0.0
 10
-59.02279282850283
 20
-27.02369132322728
 30
0.0
 10
-59.02279282850283
 20
-27.02369132322728
 30
0.0
 10
-59.02279282850283
 20
-27.02369132322728
 30
0.0
 10
-55.9773264104647
 20
-17.73639678731416
 30
0.0
 10
-40.95497763687275
 20
-19.56333212836124
 30
0.0
 10
-51.86663576566481
 20
-6.621477890802365
 30
0.0
 10
-58.51567443853087
 20
12.20804841511304
 30
0.0
 10
-59.02279282850283
 20
13.17233127756652
 30
0.0
  0
ENDBLK
  5
58
330
55
100
AcDbEntity
  8
0
100
AcDbBlockEnd
  0
BLOCK
  5
5D
330
5B
100
AcDbEntity
  8
0
100
AcDbBlockBegin
  2
block 7
 70
     0
 71
     0
 10
0.0
 20
0.0
 30
0.0
  3
block 7
  1

  0
INSERT
  5
60
330
5B
100
AcDbEntity
  8
Coordonn\U+00E9es
100
AcDbBlockReference
  2
block 8
 10
0.0
 20
0.0
 30
0.0
  0
INSERT
  5
6B
330
5B
100
AcDbEntity
  8
Coordonn\U+00E9es
100
AcDbBlockReference
  2
block 9
 10
0.0
 20
0.0
 30
0.0
  0
INSERT
  5
71
330
5B
100
AcDbEntity
  8
Coordonn\U+00E9es
100
AcDbBlockReference
  2
block 10
 10
0.0
 20
0.0
 30
0.0
  0
INSERT
  5
75
330
5B
100
AcDbEntity
  8
Coordonn\U+00E9es
100
AcDbBlockReference
  2
block 11
 10
0.0
 20
0.0
 30
0.0
  0
INSERT
  5
7B
330
5B
100
AcDbEntity
  8
Coordonn\U+00E9es
100
AcDbBlockReference
  2
block 12
 10
0.0
 20
0.0
 30
0.0
  0
ENDBLK
  5
5E
330
5B
100
AcDbEntity
  8
0
100
AcDbBlockEnd
  0
BLOCK
  5
61
330
5F
100
AcDbEntity
  8
0
100
AcDbBlockBegin
  2
block 8
 70
     0
 71
     0
 10
0.0
 20
0.0
 30
0.0
  3
block 8
  1

  0
POLYLINE
  5
63
330
5F
100
AcDbEntity
  8
Coordonn\U+00E9es
 62
     7
420
 16777215
370
     9
100
AcDb2dPolyline
 66
     1
 10
0.0
 20
0.0
 30
0.0
  0
VERTEX
  5
64
330
63
100
AcDbEntity
  8
Coordonn\U+00E9es
 62
     7
420
 16777215
370
     9
100
AcDbVertex
100
AcDb2dVertex
 10
0.0
 20
38.80489212612887
 30
0.0
  0
VERTEX
  5
65
330
63
100
AcDbEntity
  8
Coordonn\U+00E9es
 62
     7
420
 16777215
370
     9
100
AcDbVertex
100
AcDb2dVertex
 10
-519.0005321391704
 20
38.80489212612887
 30
0.0
  0
VERTEX
  5
66
330
63
100
AcDbEntity
  8
Coordonn\U+00E9es
 62
     7
420
 16777215
370
     9
100
AcDbVertex
100
AcDb2dVertex
 10
-519.0005321391704
 20
102.8048176855589
 30
0.0
  0
VERTEX
  5
67
330
63
100
AcDbEntity
  8
Coordonn\U+00E9es
 62
     7
420
 16777215
370
     9
100
AcDbVertex
100
AcDb2dVertex
 10
0.0
 20
102.8048176855589
 30
0.0
  0
VERTEX
  5
68
330
63
100
AcDbEntity
  8
Coordonn\U+00E9es
 62
     7
420
 16777215
370
     9
100
AcDbVertex
100
AcDb2dVertex
 10
0.0
 20
38.80489212612887
 30
0.0
  0
SEQEND
  5
69
330
63
100
AcDbEntity
  8
Coordonn\U+00E9es
370
     9
  0
ENDBLK
  5
62
330
5F
100
AcDbEntity
  8
0
100
AcDbBlockEnd
  0
BLOCK
  5
6C
330
6A
100
AcDbEntity
  8
0
100
AcDbBlockBegin
  2
block 9
 70
     0
 71
     0
 10
0.0
 20
0.0
 30
0.0
  3
block 9
  1

  0
SPLINE
  5
6E
330
6A
100
AcDbEntity
  8
Coordonn\U+00E9es
 62
     7
420
 16777215
370
     9
100
AcDbSpline
210
0.0
220
0.0
230
1.0
 70
    11
 71
     3
 72
    14
 73
    10
 74
     0
 42
0.0000000001
 43
0.0000000001
 40
0.0
 40
0.0
 40
0.0
 40
0.0
 40
1.0
 40
1.0
 40
1.0
 40
2.0
 40
2.0
 40
2.0
 40
3.0
 40
3.0
 40
3.0
 40
3.0
 10
-459.9772225460039
 20
90.78349356892744
 30
0.0
 10
-459.9772225460039
 20
90.78349356892744
 30
0.0
 10
-459.9772225460039
 20
50.58747096813364
 30
0.0
 10
-459.9772225460039
 20
50.58747096813364
 30
0.0
 10
-459.9772225460039
 20
50.58747096813364
 30
0.0
 10
-463.0225167091541
 20
59.87476550404676
 30
0.0
 10
-478.0455545022976
 20
58.04783016299967
 30
0.0
 10
-467.1335518637298
 20
70.98985665544645
 30
0.0
 10
-460.4848577006395
 20
89.81921070647395
 30
0.0
 10
-459.9772225460039
 20
90.78349356892744
 30
0.0
  0
SPLINE
  5
6F
330
6A
100
AcDbEntity
  8
Coordonn\U+00E9es
 62
     7
420
 16777215
370
     9
100
AcDbSpline
210
0.0
220
0.0
230
1.0
 70
    11
 71
     3
 72
    14
 73
    10
 74
     0
 42
0.0000000001
 43
0.0000000001
 40
0.0
 40
0.0
 40
0.0
 40
0.0
 40
1.0
 40
1.0
 40
1.0
 40
2.0
 40
2.0
 40
2.0
 40
3.0
 40
3.0
 40
3.0
 40
3.0
 10
-458.0233353525759
 20
90.78349356892744
 30
0.0
 10
-458.0233353525759
 20
90.78349356892744
 30
0.0
 10
-458.0233353525759
 20
50.58747096813364
 30
0.0
 10
-458.0233353525759
 20
50.58747096813364
 30
0.0
 10
-458.0233353525759
 20
50.58747096813364
 30
0.0
 10
-454.9782134443136
 20
59.87476550404676
 30
0.0
 10
-439.9553479060579
 20
58.04783016299967
 30
0.0
 10
-450.8671782897379
 20
70.98985665544645
 30
0.0
 10
-457.5158724528281
 20
89.81921070647395
 30
0.0
 10
-458.0233353525759
 20
90.78349356892744
 30
0.0
  0
ENDBLK
  5
6D
330
6A
100
AcDbEntity
  8
0
100
AcDbBlockEnd
  0
BLOCK
  5
72
330
70
100
AcDbEntity
  8
0
100
AcDbBlockBegin
  2
block 10
 70
     0
 71
     0
 10
0.0
 20
0.0
 30
0.0
  3
block 10
  1

  0
ENDBLK
  5
73
330
70
100
AcDbEntity
  8
0
100
AcDbBlockEnd
  0
BLOCK
  5
76
330
74
100
AcDbEntity
  8
0
100
AcDbBlockBegin
  2
block 11
 70
     0
 71
     0
 10
0.0
 20
0.0
 30
0.0
  3
block 11
  1

  0
SPLINE
  5
78
330
74
100
AcDbEntity
  8
Coordonn\U+00E9es
 62
     7
420
 16777215
370
     9
100
AcDbSpline
210
0.0
220
0.0
230
1.0
 70
    11
 71
     3
 72
    14
 73
    10
 74
     0
 42
0.0000000001
 43
0.0000000001
 40
0.0
 40
0.0
 40
0.0
 40
0.0
 40
1.0
 40
1.0
 40
1.0
 40
2.0
 40
2.0
 40
2.0
 40
3.0
 40
3.0
 40
3.0
 40
3.0
 10
-60.9768522768187
 20
90.78349356892744
 30
0.0
 10
-60.9768522768187
 20
90.78349356892744
 30
0.0
 10
-60.9768522768187
 20
50.58747096813364
 30
0.0
 10
-60.9768522768187
 20
50.58747096813364
 30
0.0
 10
-60.9768522768187
 20
50.58747096813364
 30
0.0
 10
-64.02231869485684
 20
59.87476550404676
 30
0.0
 10
-79.04501197822458
 20
58.04783016299967
 30
0.0
 10
-68.13300933965672
 20
70.98985665544645
 30
0.0
 10
-61.48431517656645
 20
89.81921070647395
 30
0.0
 10
-60.9768522768187
 20
90.78349356892744
 30
0.0
  0
SPLINE
  5
79
330
74
100
AcDbEntity
  8
Coordonn\U+00E9es
 62
     7
420
 16777215
370
     9
100
AcDbSpline
210
0.0
220
0.0
230
1.0
 70
    11
 71
     3
 72
    14
 73
    10
 74
     0
 42
0.0000000001
 43
0.0000000001
 40
0.0
 40
0.0
 40
0.0
 40
0.0
 40
1.0
 40
1.0
 40
1.0
 40
2.0
 40
2.0
 40
2.0
 40
3.0
 40
3.0
 40
3.0
 40
3.0
 10
-59.02279282850283
 20
90.78349356892744
 30
0.0
 10
-59.02279282850283
 20
90.78349356892744
 30
0.0
 10
-59.02279282850283
 20
50.58747096813364
 30
0.0
 10
-59.02279282850283
 20
50.58747096813364
 30
0.0
 10
-59.02279282850283
 20
50.58747096813364
 30
0.0
 10
-55.9773264104647
 20
59.87476550404676
 30
0.0
 10
-40.95497763687275
 20
58.04783016299967
 30
0.0
 10
-51.86663576566481
 20
70.98985665544645
 30
0.0
 10
-58.51567443853087
 20
89.81921070647395
 30
0.0
 10
-59.02279282850283
 20
90.78349356892744
 30
0.0
  0
ENDBLK
  5
77
330
74
100
AcDbEntity
  8
0
100
AcDbBlockEnd
  0
BLOCK
  5
7C
330
7A
100
AcDbEntity
  8
0
100
AcDbBlockBegin
  2
block 12
 70
     0
 71
     0
 10
0.0
 20
0.0
 30
0.0
  3
block 12
  1

  0
SPLINE
  5
7E
330
7A
100
AcDbEntity
  8
Coordonn\U+00E9es
 62
     7
420
 16777215
370
     9
100
AcDbSpline
210
0.0
220
0.0
230
1.0
 70
    11
 71
     3
 72
    23
 73
    19
 74
     0
 42
0.0000000001
 43
0.0000000001
 40
0.0
 40
0.0
 40
0.0
 40
0.0
 40
1.0
 40
1.0
 40
1.0
 40
2.0
 40
2.0
 40
2.0
 40
3.0
 40
3.0
 40
3.0
 40
4.0
 40
4.0
 40
4.0
 40
5.0
 40
5.0
 40
5.0
 40
6.0
 40
6.0
 40
6.0
 40
6.0
 10
-369.9693927372815
 20
50.17302570785085
 30
0.0
 10
-378.8768652453793
 20
50.47757234965466
 30
0.0
 10
-383.3298263524327
 20
54.57517162297429
 30
0.0
 10
-383.3298263524327
 20
62.46651254736133
 30
0.0
 10
-383.3298263524327
 20
62.46651254736133
 30
0.0
 10
-383.3298263524327
 20
91.21929843530958
 30
0.0
 10
-383.3298263524327
 20
91.21929843530958
 30
0.0
 10
-383.3298263524327
 20
91.21929843530958
 30
0.0
 10
-373.8811289865591
 20
91.21929843530958
 30
0.0
 10
-373.8811289865591
 20
91.21929843530958
 30
0.0
 10
-373.8811289865591
 20
91.21929843530958
 30
0.0
 10
-373.8811289865591
 20
60.99338874605692
 30
0.0
 10
-373.8811289865591
 20
60.99338874605692
 30
0.0
 10
-373.8811289865591
 20
58.38510523350412
 30
0.0
 10
-372.5776762498343
 20
56.94608790000353
 30
0.0
 10
-369.9693927372815
 20
56.67530321622774
 30
0.0
 10
-369.9693927372815
 20
56.67530321622774
 30
0.0
 10
-369.9693927372815
 20
50.17302570785085
 30
0.0
 10
-369.9693927372815
 20
50.17302570785085
 30
0.0
  0
SPLINE
  5
7F
330
7A
100
AcDbEntity
  8
Coordonn\U+00E9es
 62
     7
420
 16777215
370
     9
100
AcDbSpline
210
0.0
220
0.0
230
1.0
 70
    11
 71
     3
 72
    26
 73
    22
 74
     0
 42
0.0000000001
 43
0.0000000001
 40
0.0
 40
0.0
 40
0.0
 40
0.0
 40
1.0
 40
1.0
 40
1.0
 40
2.0
 40
2.0
 40
2.0
 40
3.0
 40
3.0
 40
3.0
 40
4.0
 40
4.0
 40
4.0
 40
5.0
 40
5.0
 40
5.0
 40
6.0
 40
6.0
 40
6.0
 40
7.0
 40
7.0
 40
7.0
 40
7.0
 10
-368.3438233601873
 20
56.67530321622774
 30
0.0
 10
-367.0229728797848
 20
56.81035104833983
 30
0.0
 10
-366.0157985502447
 20
57.2086043491602
 30
0.0
 10
-365.3212668422396
 20
57.86937409913726
 30
0.0
 10
-364.627596408674
 20
58.52945482956272
 30
0.0
 10
-364.2798137900078
 20
59.57090788179454
 30
0.0
 10
-364.2798137900078
 20
60.99338874605692
 30
0.0
 10
-364.2798137900078
 20
60.99338874605692
 30
0.0
 10
-364.2798137900078
 20
91.21929843530958
 30
0.0
 10
-364.2798137900078
 20
91.21929843530958
 30
0.0
 10
-364.2798137900078
 20
91.21929843530958
 30
0.0
 10
-354.7294860402743
 20
91.21929843530958
 30
0.0
 10
-354.7294860402743
 20
91.21929843530958
 30
0.0
 10
-354.7294860402743
 20
91.21929843530958
 30
0.0
 10
-354.7294860402743
 20
62.26325177964159
 30
0.0
 10
-354.7294860402743
 20
62.26325177964159
 30
0.0
 10
-354.7635925080781
 20
54.40601732305837
 30
0.0
 10
-359.3014752748653
 20
50.37628647557059
 30
0.0
 10
-368.3438233601873
 20
50.17302570785085
 30
0.0
 10
-368.3438233601873
 20
50.17302570785085
 30
0.0
 10
-368.3438233601873
 20
56.67530321622774
 30
0.0
 10
-368.3438233601873
 20
56.67530321622774
 30
0.0
  0
POLYLINE
  5
80
330
7A
100
AcDbEntity
  8
Coordonn\U+00E9es
 62
     7
420
 16777215
370
     9
100
AcDb2dPolyline
 66
     1
 10
0.0
 20
0.0
 30
0.0
  0
VERTEX
  5
81
330
80
100
AcDbEntity
  8
Coordonn\U+00E9es
 62
     7
420
 16777215
370
     9
100
AcDbVertex
100
AcDb2dVertex
 10
-351.6812635440298
 20
57.335728456429
 30
0.0
  0
VERTEX
  5
82
330
80
100
AcDbEntity
  8
Coordonn\U+00E9es
 62
     7
420
 16777215
370
     9
100
AcDbVertex
100
AcDb2dVertex
 10
-342.7405458425676
 20
57.335728456429
 30
0.0
  0
VERTEX
  5
83
330
80
100
AcDbEntity
  8
Coordonn\U+00E9es
 62
     7
420
 16777215
370
     9
100
AcDbVertex
100
AcDb2dVertex
 10
-342.7405458425676
 20
50.98572426895401
 30
0.0
  0
VERTEX
  5
84
330
80
100
AcDbEntity
  8
Coordonn\U+00E9es
 62
     7
420
 16777215
370
     9
100
AcDbVertex
100
AcDb2dVertex
 10
-351.6812635440298
 20
50.98572426895401
 30
0.0
  0
VERTEX
  5
85
330
80
100
AcDbEntity
  8
Coordonn\U+00E9es
 62
     7
420
 16777215
370
     9
100
AcDbVertex
100
AcDb2dVertex
 10
-351.6812635440298
 20
57.335728456429
 30
0.0
  0
SEQEND
  5
86
330
80
100
AcDbEntity
  8
Coordonn\U+00E9es
370
     9
  0
POLYLINE
  5
87
330
7A
100
AcDbEntity
  8
Coordonn\U+00E9es
 62
     7
420
 16777215
370
     9
100
AcDb2dPolyline
 66
     1
 10
0.0
 20
0.0
 30
0.0
  0
VERTEX
  5
88
330
87
100
AcDbEntity
  8
Coordonn\U+00E9es
 62
     7
420
 16777215
370
     9
100
AcDbVertex
100
AcDb2dVertex
 10
-329.0252671583464
 20
91.21929843530958
 30
0.0
  0
VERTEX
  5
89
330
87
100
AcDbEntity
  8
Coordonn\U+00E9es
 62
     7
420
 16777215
370
     9
100
AcDbVertex
100
AcDb2dVertex
 10
-329.0252671583464
 20
50.98572426895401
 30
0.0
  0
VERTEX
  5
8A
330
87
100
AcDbEntity
  8
Coordonn\U+00E9es
 62
     7
420
 16777215
370
     9
100
AcDbVertex
100
AcDb2dVertex
 10
-337.6612659631168
 20
50.98572426895401
 30
0.0
  0
VERTEX
  5
8B
330
87
100
AcDbEntity
  8
Coordonn\U+00E9es
 62
     7
420
 16777215
370
     9
100
AcDbVertex
100
AcDb2dVertex
 10
-337.6612659631168
 20
91.21929843530958
 30
0.0
  0
VERTEX
  5
8C
330
87
100
AcDbEntity
  8
Coordonn\U+00E9es
 62
     7
420
 16777215
370
     9
100
AcDbVertex
100
AcDb2dVertex
 10
-329.0252671583464
 20
91.21929843530958
 30
0.0
  0
SEQEND
  5
8D
330
87
100
AcDbEntity
  8
Coordonn\U+00E9es
370
     9
  0
POLYLINE
  5
8E
330
7A
100
AcDbEntity
  8
Coordonn\U+00E9es
 62
     7
420
 16777215
370
     9
100
AcDb2dPolyline
 66
     1
 10
0.0
 20
0.0
 30
0.0
  0
VERTEX
  5
8F
330
8E
100
AcDbEntity
  8
Coordonn\U+00E9es
 62
     7
420
 16777215
370
     9
100
AcDbVertex
100
AcDb2dVertex
 10
-317.8493700315186
 20
53.67806816680107
 30
0.0
  0
VERTEX
  5
90
330
8E
100
AcDbEntity
  8
Coordonn\U+00E9es
 62
     7
420
 16777215
370
     9
100
AcDbVertex
100
AcDb2dVertex
 10
-327.9076774456636
 20
74.04893120962853
 30
0.0
  0
VERTEX
  5
91
330
8E
100
AcDbEntity
  8
Coordonn\U+00E9es
 62
     7
420
 16777215
370
     9
100
AcDbVertex
100
AcDb2dVertex
 10
-327.9076774456636
 20
88.069790064981
 30
0.0
  0
VERTEX
  5
92
330
8E
100
AcDbEntity
  8
Coordonn\U+00E9es
 62
     7
420
 16777215
370
     9
100
AcDbVertex
100
AcDb2dVertex
 10
-317.8493700315186
 20
67.54665370125164
 30
0.0
  0
VERTEX
  5
93
330
8E
100
AcDbEntity
  8
Coordonn\U+00E9es
 62
     7
420
 16777215
370
     9
100
AcDbVertex
100
AcDb2dVertex
 10
-317.8493700315186
 20
53.67806816680107
 30
0.0
  0
SEQEND
  5
94
330
8E
100
AcDbEntity
  8
Coordonn\U+00E9es
370
     9
  0
POLYLINE
  5
95
330
7A
100
AcDbEntity
  8
Coordonn\U+00E9es
 62
     7
420
 16777215
370
     9
100
AcDb2dPolyline
 66
     1
 10
0.0
 20
0.0
 30
0.0
  0
VERTEX
  5
96
330
95
100
AcDbEntity
  8
Coordonn\U+00E9es
 62
     7
420
 16777215
370
     9
100
AcDbVertex
100
AcDb2dVertex
 10
-307.9941511302055
 20
91.21929843530958
 30
0.0
  0
VERTEX
  5
97
330
95
100
AcDbEntity
  8
Coordonn\U+00E9es
 62
     7
420
 16777215
370
     9
100
AcDbVertex
100
AcDb2dVertex
 10
-307.9941511302055
 20
50.98572426895401
 30
0.0
  0
VERTEX
  5
98
330
95
100
AcDbEntity
  8
Coordonn\U+00E9es
 62
     7
420
 16777215
370
     9
100
AcDbVertex
100
AcDb2dVertex
 10
-316.7825955107658
 20
50.98572426895401
 30
0.0
  0
VERTEX
  5
99
330
95
100
AcDbEntity
  8
Coordonn\U+00E9es
 62
     7
420
 16777215
370
     9
100
AcDbVertex
100
AcDb2dVertex
 10
-316.7825955107658
 20
91.21929843530958
 30
0.0
  0
VERTEX
  5
9A
330
95
100
AcDbEntity
  8
Coordonn\U+00E9es
 62
     7
420
 16777215
370
     9
100
AcDbVertex
100
AcDb2dVertex
 10
-307.9941511302055
 20
91.21929843530958
 30
0.0
  0
SEQEND
  5
9B
330
95
100
AcDbEntity
  8
Coordonn\U+00E9es
370
     9
  0
POLYLINE
  5
9C
330
7A
100
AcDbEntity
  8
Coordonn\U+00E9es
 62
     7
420
 16777215
370
     9
100
AcDb2dPolyline
 66
     1
 10
0.0
 20
0.0
 30
0.0
  0
VERTEX
  5
9D
330
9C
100
AcDbEntity
  8
Coordonn\U+00E9es
 62
     7
420
 16777215
370
     9
100
AcDbVertex
100
AcDb2dVertex
 10
-302.9649974231331
 20
57.335728456429
 30
0.0
  0
VERTEX
  5
9E
330
9C
100
AcDbEntity
  8
Coordonn\U+00E9es
 62
     7
420
 16777215
370
     9
100
AcDbVertex
100
AcDb2dVertex
 10
-294.0242797216709
 20
57.335728456429
 30
0.0
  0
VERTEX
  5
9F
330
9C
100
AcDbEntity
  8
Coordonn\U+00E9es
 62
     7
420
 16777215
370
     9
100
AcDbVertex
100
AcDb2dVertex
 10
-294.0242797216709
 20
50.98572426895401
 30
0.0
  0
VERTEX
  5
A0
330
9C
100
AcDbEntity
  8
Coordonn\U+00E9es
 62
     7
420
 16777215
370
     9
100
AcDbVertex
100
AcDb2dVertex
 10
-302.9649974231331
 20
50.98572426895401
 30
0.0
  0
VERTEX
  5
A1
330
9C
100
AcDbEntity
  8
Coordonn\U+00E9es
 62
     7
420
 16777215
370
     9
100
AcDbVertex
100
AcDb2dVertex
 10
-302.9649974231331
 20
57.335728456429
 30
0.0
  0
SEQEND
  5
A2
330
9C
100
AcDbEntity
  8
Coordonn\U+00E9es
370
     9
  0
SPLINE
  5
A3
330
7A
100
AcDbEntity
  8
Coordonn\U+00E9es
 62
     7
420
 16777215
370
     9
100
AcDbSpline
210
0.0
220
0.0
230
1.0
 70
    11
 71
     3
 72
    17
 73
    13
 74
     0
 42
0.0000000001
 43
0.0000000001
 40
0.0
 40
0.0
 40
0.0
 40
0.0
 40
1.0
 40
1.0
 40
1.0
 40
2.0
 40
2.0
 40
2.0
 40
3.0
 40
3.0
 40
3.0
 40
4.0
 40
4.0
 40
4.0
 40
4.0
 10
-281.9338813949922
 20
62.92367701984285
 30
0.0
 10
-281.8322510111324
 20
59.3676471140748
 30
0.0
 10
-280.122448993856
 20
57.43735884028887
 30
0.0
 10
-276.8030973040599
 20
57.13246768870926
 30
0.0
 10
-276.8030973040599
 20
57.13246768870926
 30
0.0
 10
-276.8030973040599
 20
50.17302570785085
 30
0.0
 10
-276.8030973040599
 20
50.17302570785085
 30
0.0
 10
-286.1501642860736
 20
50.51202332723427
 30
0.0
 10
-290.8237839045245
 20
54.76155141168002
 30
0.0
 10
-290.8237839045245
 20
62.92367701984285
 30
0.0
 10
-290.8237839045245
 20
62.92367701984285
 30
0.0
 10
-281.9338813949922
 20
62.92367701984285
 30
0.0
 10
-281.9338813949922
 20
62.92367701984285
 30
0.0
  0
SPLINE
  5
A4
330
7A
100
AcDbEntity
  8
Coordonn\U+00E9es
 62
     7
420
 16777215
370
     9
100
AcDbSpline
210
0.0
220
0.0
230
1.0
 70
    11
 71
     3
 72
    62
 73
    58
 74
     0
 42
0.0000000001
 43
0.0000000001
 40
0.0
 40
0.0
 40
0.0
 40
0.0
 40
1.0
 40
1.0
 40
1.0
 40
2.0
 40
2.0
 40
2.0
 40
3.0
 40
3.0
 40
3.0
 40
4.0
 40
4.0
 40
4.0
 40
5.0
 40
5.0
 40
5.0
 40
6.0
 40
6.0
 40
6.0
 40
7.0
 40
7.0
 40
7.0
 40
8.0
 40
8.0
 40
8.0
 40
9.0
 40
9.0
 40
9.0
 40
10.0
 40
10.0
 40
10.0
 40
11.0
 40
11.0
 40
11.0
 40
12.0
 40
12.0
 40
12.0
 40
13.0
 40
13.0
 40
13.0
 40
14.0
 40
14.0
 40
14.0
 40
15.0
 40
15.0
 40
15.0
 40
16.0
 40
16.0
 40
16.0
 40
17.0
 40
17.0
 40
17.0
 40
18.0
 40
18.0
 40
18.0
 40
19.0
 40
19.0
 40
19.0
 40
19.0
 10
-260.9534083038935
 20
60.3836064428977
 30
0.0
 10
-260.9534083038935
 20
53.77969855066094
 30
0.0
 10
-265.4919800902322
 20
50.37628647557059
 30
0.0
 10
-274.5677456238064
 20
50.17302570785085
 30
0.0
 10
-274.5677456238064
 20
50.17302570785085
 30
0.0
 10
-274.5677456238064
 20
57.08182475166721
 30
0.0
 10
-274.5677456238064
 20
57.08182475166721
 30
0.0
 10
-271.5539741051415
 20
57.35260943544301
 30
0.0
 10
-270.0465715811454
 20
58.43574817054616
 30
0.0
 10
-270.0465715811454
 20
60.33296350585566
 30
0.0
 10
-270.2498323488651
 20
61.61970751845436
 30
0.0
 10
-271.0459944407301
 20
62.80482114719317
 30
0.0
 10
-272.4341965823008
 20
63.88899341162372
 30
0.0
 10
-274.7710063915262
 20
65.61602091768991
 30
0.0
 10
-276.9553706249618
 20
67.24176254967203
 30
0.0
 10
-278.9874615374955
 20
68.76552928801848
 30
0.0
 10
-281.0193801951413
 20
70.28981279102864
 30
0.0
 10
-283.0180536594228
 20
71.71212140040312
 30
0.0
 10
-284.981759381461
 20
73.03297188080563
 30
0.0
 10
-287.7250907261258
 20
75.19993837056353
 30
0.0
 10
-289.40147529515
 20
78.02801912007428
 30
0.0
 10
-290.0110853434213
 20
81.51652510978629
 30
0.0
 10
-290.0110853434213
 20
88.22206338588292
 30
0.0
 10
-285.6254758975361
 20
91.69317163191722
 30
0.0
 10
-276.8537402411019
 20
91.93053886744077
 30
0.0
 10
-276.8537402411019
 20
91.93053886744077
 30
0.0
 10
-276.8537402411019
 20
85.12337020748427
 30
0.0
 10
-276.8537402411019
 20
85.12337020748427
 30
0.0
 10
-278.3778514892242
 20
84.95352688801677
 30
0.0
 10
-279.4112085617248
 20
84.5724990759862
 30
0.0
 10
-279.9526056743885
 20
83.98028677139258
 30
0.0
 10
-280.4946918066037
 20
83.38738544724738
 30
0.0
 10
-280.7654764903795
 20
82.49837797080536
 30
0.0
 10
-280.7654764903795
 20
81.31326434206655
 30
0.0
 10
-280.7654764903795
 20
80.19567462938377
 30
0.0
 10
-280.3081397630101
 20
79.31476313267298
 30
0.0
 10
-279.3938108180471
 20
78.67173563614942
 30
0.0
 10
-278.7842007697757
 20
78.29863154896218
 30
0.0
 10
-278.0397151442803
 20
77.81614560795964
 30
0.0
 10
-277.1586313926815
 20
77.22393330336602
 30
0.0
 10
-276.2784089155223
 20
76.63103197922082
 30
0.0
 10
-275.3552949712765
 20
76.00471320682338
 30
0.0
 10
-274.3899785794956
 20
75.34428796662213
 30
0.0
 10
-273.4248344426027
 20
74.68386272642087
 30
0.0
 10
-272.4683030501046
 20
74.01482474182471
 30
0.0
 10
-271.5198676373377
 20
73.33769077749734
 30
0.0
 10
-270.5721212441225
 20
72.65986779361837
 30
0.0
 10
-269.7163589610448
 20
72.05025774534705
 30
0.0
 10
-268.9544755918716
 20
71.50886063268338
 30
0.0
 10
-268.1922477129226
 20
70.9667745004681
 30
0.0
 10
-267.5748861946958
 20
70.5263187521127
 30
0.0
 10
-267.1001517236487
 20
70.18835466205667
 30
0.0
 10
-266.626450781929
 20
69.84935704267323
 30
0.0
 10
-266.3722025673914
 20
69.68020274275732
 30
0.0
 10
-266.3380960995876
 20
69.68020274275732
 30
0.0
 10
-262.7489932553431
 20
67.10602569800834
 30
0.0
 10
-260.9534083038935
 20
64.0071602647218
 30
0.0
 10
-260.9534083038935
 20
60.3836064428977
 30
0.0
  0
SPLINE
  5
A5
330
7A
100
AcDbEntity
  8
Coordonn\U+00E9es
 62
     7
420
 16777215
370
     9
100
AcDbSpline
210
0.0
220
0.0
230
1.0
 70
    11
 71
     3
 72
    17
 73
    13
 74
     0
 42
0.0000000001
 43
0.0000000001
 40
0.0
 40
0.0
 40
0.0
 40
0.0
 40
1.0
 40
1.0
 40
1.0
 40
2.0
 40
2.0
 40
2.0
 40
3.0
 40
3.0
 40
3.0
 40
4.0
 40
4.0
 40
4.0
 40
4.0
 10
-270.6053664374868
 20
80.29730501324364
 30
0.0
 10
-270.6053664374868
 20
83.10798801907669
 30
0.0
 10
-271.9262169178893
 20
84.71702092693269
 30
0.0
 10
-274.5677456238064
 20
85.12337020748427
 30
0.0
 10
-274.5677456238064
 20
85.12337020748427
 30
0.0
 10
-274.5677456238064
 20
91.93053886744077
 30
0.0
 10
-274.5677456238064
 20
91.93053886744077
 30
0.0
 10
-265.6952408579519
 20
91.59154124805735
 30
0.0
 10
-261.258299455473
 20
87.71408372147147
 30
0.0
 10
-261.258299455473
 20
80.29730501324364
 30
0.0
 10
-261.258299455473
 20
80.29730501324364
 30
0.0
 10
-270.6053664374868
 20
80.29730501324364
 30
0.0
 10
-270.6053664374868
 20
80.29730501324364
 30
0.0
  0
POLYLINE
  5
A6
330
7A
100
AcDbEntity
  8
Coordonn\U+00E9es
 62
     7
420
 16777215
370
     9
100
AcDb2dPolyline
 66
     1
 10
0.0
 20
0.0
 30
0.0
  0
VERTEX
  5
A7
330
A6
100
AcDbEntity
  8
Coordonn\U+00E9es
 62
     7
420
 16777215
370
     9
100
AcDbVertex
100
AcDb2dVertex
 10
-247.2381296196722
 20
91.21929843530958
 30
0.0
  0
VERTEX
  5
A8
330
A6
100
AcDbEntity
  8
Coordonn\U+00E9es
 62
     7
420
 16777215
370
     9
100
AcDbVertex
100
AcDb2dVertex
 10
-247.2381296196722
 20
50.98572426895401
 30
0.0
  0
VERTEX
  5
A9
330
A6
100
AcDbEntity
  8
Coordonn\U+00E9es
 62
     7
420
 16777215
370
     9
100
AcDbVertex
100
AcDb2dVertex
 10
-256.4327510258961
 20
50.98572426895401
 30
0.0
  0
VERTEX
  5
AA
330
A6
100
AcDbEntity
  8
Coordonn\U+00E9es
 62
     7
420
 16777215
370
     9
100
AcDbVertex
100
AcDb2dVertex
 10
-256.4327510258961
 20
91.21929843530958
 30
0.0
  0
VERTEX
  5
AB
330
A6
100
AcDbEntity
  8
Coordonn\U+00E9es
 62
     7
420
 16777215
370
     9
100
AcDbVertex
100
AcDb2dVertex
 10
-247.2381296196722
 20
91.21929843530958
 30
0.0
  0
SEQEND
  5
AC
330
A6
100
AcDbEntity
  8
Coordonn\U+00E9es
370
     9
  0
SPLINE
  5
AD
330
7A
100
AcDbEntity
  8
Coordonn\U+00E9es
 62
     7
420
 16777215
370
     9
100
AcDbSpline
210
0.0
220
0.0
230
1.0
 70
    11
 71
     3
 72
    44
 73
    40
 74
     0
 42
0.0000000001
 43
0.0000000001
 40
0.0
 40
0.0
 40
0.0
 40
0.0
 40
1.0
 40
1.0
 40
1.0
 40
2.0
 40
2.0
 40
2.0
 40
3.0
 40
3.0
 40
3.0
 40
4.0
 40
4.0
 40
4.0
 40
5.0
 40
5.0
 40
5.0
 40
6.0
 40
6.0
 40
6.0
 40
7.0
 40
7.0
 40
7.0
 40
8.0
 40
8.0
 40
8.0
 40
9.0
 40
9.0
 40
9.0
 40
10.0
 40
10.0
 40
10.0
 40
11.0
 40
11.0
 40
11.0
 40
12.0
 40
12.0
 40
12.0
 40
13.0
 40
13.0
 40
13.0
 40
13.0
 10
-242.3612492335016
 20
74.91261721754952
 30
0.0
 10
-240.905350920987
 20
74.91261721754952
 30
0.0
 10
-239.8211786565564
 20
75.3013964995355
 30
0.0
 10
-239.1101104793132
 20
76.08102212216224
 30
0.0
 10
-238.3986977922941
 20
76.85961421546158
 30
0.0
 10
-238.0431637036724
 20
77.97720392814435
 30
0.0
 10
-238.0431637036724
 20
79.43379126021055
 30
0.0
 10
-238.0431637036724
 20
81.16099102116465
 30
0.0
 10
-238.3821613230558
 20
82.43102630963722
 30
0.0
 10
-239.0591230324953
 20
83.24372487074038
 30
0.0
 10
-239.7371182712622
 20
84.05659568673144
 30
0.0
 10
-240.8371379853793
 20
84.46294496728302
 30
0.0
 10
-242.3612492335016
 20
84.46294496728302
 30
0.0
 10
-242.3612492335016
 20
84.46294496728302
 30
0.0
 10
-245.561745050648
 20
84.46294496728302
 30
0.0
 10
-245.561745050648
 20
84.46294496728302
 30
0.0
 10
-245.561745050648
 20
84.46294496728302
 30
0.0
 10
-245.561745050648
 20
91.21929843530958
 30
0.0
 10
-245.561745050648
 20
91.21929843530958
 30
0.0
 10
-245.561745050648
 20
91.21929843530958
 30
0.0
 10
-242.6151529382634
 20
91.21929843530958
 30
0.0
 10
-242.6151529382634
 20
91.21929843530958
 30
0.0
 10
-233.2679137013617
 20
91.21929843530958
 30
0.0
 10
-228.5942940829109
 20
87.66326852954153
 30
0.0
 10
-228.5942940829109
 20
80.55138097289333
 30
0.0
 10
-228.5942940829109
 20
76.25000416719026
 30
0.0
 10
-229.7039600707504
 20
73.1170322660999
 30
0.0
 10
-231.9219140073261
 20
71.15332654406173
 30
0.0
 10
-234.1402124536776
 20
69.18858729269618
 30
0.0
 10
-237.6201056989947
 20
68.2067344316771
 30
0.0
 10
-242.3612492335016
 20
68.2067344316771
 30
0.0
 10
-242.3612492335016
 20
68.2067344316771
 30
0.0
 10
-245.561745050648
 20
68.2067344316771
 30
0.0
 10
-245.561745050648
 20
68.2067344316771
 30
0.0
 10
-245.561745050648
 20
68.2067344316771
 30
0.0
 10
-245.561745050648
 20
74.91261721754952
 30
0.0
 10
-245.561745050648
 20
74.91261721754952
 30
0.0
 10
-245.561745050648
 20
74.91261721754952
 30
0.0
 10
-242.3612492335016
 20
74.91261721754952
 30
0.0
 10
-242.3612492335016
 20
74.91261721754952
 30
0.0
  0
POLYLINE
  5
AE
330
7A
100
AcDbEntity
  8
Coordonn\U+00E9es
 62
     7
420
 16777215
370
     9
100
AcDb2dPolyline
 66
     1
 10
0.0
 20
0.0
 30
0.0
  0
VERTEX
  5
AF
330
AE
100
AcDbEntity
  8
Coordonn\U+00E9es
 62
     7
420
 16777215
370
     9
100
AcDbVertex
100
AcDb2dVertex
 10
-210.6622157429445
 20
91.21929843530958
 30
0.0
  0
VERTEX
  5
B0
330
AE
100
AcDbEntity
  8
Coordonn\U+00E9es
 62
     7
420
 16777215
370
     9
100
AcDbVertex
100
AcDb2dVertex
 10
-200.4512904981219
 20
50.98572426895401
 30
0.0
  0
VERTEX
  5
B1
330
AE
100
AcDbEntity
  8
Coordonn\U+00E9es
 62
     7
420
 16777215
370
     9
100
AcDbVertex
100
AcDb2dVertex
 10
-210.1540638236452
 20
50.98572426895401
 30
0.0
  0
VERTEX
  5
B2
330
AE
100
AcDbEntity
  8
Coordonn\U+00E9es
 62
     7
420
 16777215
370
     9
100
AcDbVertex
100
AcDb2dVertex
 10
-212.0337091603891
 20
59.41829005111683
 30
0.0
  0
VERTEX
  5
B3
330
AE
100
AcDbEntity
  8
Coordonn\U+00E9es
 62
     7
420
 16777215
370
     9
100
AcDbVertex
100
AcDb2dVertex
 10
-220.0600979168882
 20
59.41829005111683
 30
0.0
  0
VERTEX
  5
B4
330
AE
100
AcDbEntity
  8
Coordonn\U+00E9es
 62
     7
420
 16777215
370
     9
100
AcDbVertex
100
AcDb2dVertex
 10
-218.7392474364857
 20
66.12417283698926
 30
0.0
  0
VERTEX
  5
B5
330
AE
100
AcDbEntity
  8
Coordonn\U+00E9es
 62
     7
420
 16777215
370
     9
100
AcDbVertex
100
AcDb2dVertex
 10
-213.4055470876094
 20
66.12417283698926
 30
0.0
  0
VERTEX
  5
B6
330
AE
100
AcDbEntity
  8
Coordonn\U+00E9es
 62
     7
420
 16777215
370
     9
100
AcDbVertex
100
AcDb2dVertex
 10
-216.555055457938
 20
82.48166924667926
 30
0.0
  0
VERTEX
  5
B7
330
AE
100
AcDbEntity
  8
Coordonn\U+00E9es
 62
     7
420
 16777215
370
     9
100
AcDbVertex
100
AcDb2dVertex
 10
-223.6671152694741
 20
50.98572426895401
 30
0.0
  0
VERTEX
  5
B8
330
AE
100
AcDbEntity
  8
Coordonn\U+00E9es
 62
     7
420
 16777215
370
     9
100
AcDbVertex
100
AcDb2dVertex
 10
-232.811093738656
 20
50.98572426895401
 30
0.0
  0
VERTEX
  5
B9
330
AE
100
AcDbEntity
  8
Coordonn\U+00E9es
 62
     7
420
 16777215
370
     9
100
AcDbVertex
100
AcDb2dVertex
 10
-222.6001684938334
 20
91.21929843530958
 30
0.0
  0
VERTEX
  5
BA
330
AE
100
AcDbEntity
  8
Coordonn\U+00E9es
 62
     7
420
 16777215
370
     9
100
AcDbVertex
100
AcDb2dVertex
 10
-210.6622157429445
 20
91.21929843530958
 30
0.0
  0
SEQEND
  5
BB
330
AE
100
AcDbEntity
  8
Coordonn\U+00E9es
370
     9
  0
SPLINE
  5
BC
330
7A
100
AcDbEntity
  8
Coordonn\U+00E9es
 62
     7
420
 16777215
370
     9
100
AcDbSpline
210
0.0
220
0.0
230
1.0
 70
    11
 71
     3
 72
    29
 73
    25
 74
     0
 42
0.0000000001
 43
0.0000000001
 40
0.0
 40
0.0
 40
0.0
 40
0.0
 40
1.0
 40
1.0
 40
1.0
 40
2.0
 40
2.0
 40
2.0
 40
3.0
 40
3.0
 40
3.0
 40
4.0
 40
4.0
 40
4.0
 40
5.0
 40
5.0
 40
5.0
 40
6.0
 40
6.0
 40
6.0
 40
7.0
 40
7.0
 40
7.0
 40
8.0
 40
8.0
 40
8.0
 40
8.0
 10
-197.9622073679946
 20
81.1101758292347
 30
0.0
 10
-197.9622073679946
 20
88.01897487305108
 30
0.0
 10
-193.5769424318851
 20
91.676635162679
 30
0.0
 10
-184.8050345205631
 20
92.08298444323059
 30
0.0
 10
-184.8050345205631
 20
92.08298444323059
 30
0.0
 10
-184.8050345205631
 20
85.47890429610592
 30
0.0
 10
-184.8050345205631
 20
85.47890429610592
 30
0.0
 10
-187.2775811814521
 20
85.17418539941421
 30
0.0
 10
-188.5136822570088
 20
83.835937175334
 30
0.0
 10
-188.5136822570088
 20
81.46570991785636
 30
0.0
 10
-188.5136822570088
 20
81.46570991785636
 30
0.0
 10
-188.5136822570088
 20
60.53587976379961
 30
0.0
 10
-188.5136822570088
 20
60.53587976379961
 30
0.0
 10
-188.5136822570088
 20
58.30070033843406
 30
0.0
 10
-187.2775811814521
 20
57.01361181605957
 30
0.0
 10
-184.8050345205631
 20
56.67530321622774
 30
0.0
 10
-184.8050345205631
 20
56.67530321622774
 30
0.0
 10
-184.8050345205631
 20
50.17302570785085
 30
0.0
 10
-184.8050345205631
 20
50.17302570785085
 30
0.0
 10
-193.5769424318851
 20
50.51202332723427
 30
0.0
 10
-197.9622073679946
 20
54.45666026010041
 30
0.0
 10
-197.9622073679946
 20
62.00934807487982
 30
0.0
 10
-197.9622073679946
 20
62.00934807487982
 30
0.0
 10
-197.9622073679946
 20
81.1101758292347
 30
0.0
 10
-197.9622073679946
 20
81.1101758292347
 30
0.0
  0
SPLINE
  5
BD
330
7A
100
AcDbEntity
  8
Coordonn\U+00E9es
 62
     7
420
 16777215
370
     9
100
AcDbSpline
210
0.0
220
0.0
230
1.0
 70
    11
 71
     3
 72
    23
 73
    19
 74
     0
 42
0.0000000001
 43
0.0000000001
 40
0.0
 40
0.0
 40
0.0
 40
0.0
 40
1.0
 40
1.0
 40
1.0
 40
2.0
 40
2.0
 40
2.0
 40
3.0
 40
3.0
 40
3.0
 40
4.0
 40
4.0
 40
4.0
 40
5.0
 40
5.0
 40
5.0
 40
6.0
 40
6.0
 40
6.0
 40
6.0
 10
-182.925733693595
 20
92.13379963516051
 30
0.0
 10
-173.8155171824411
 20
92.06541444466498
 30
0.0
 10
-169.2604089268641
 20
88.34040249386891
 30
0.0
 10
-169.2604089268641
 20
80.95773025344491
 30
0.0
 10
-169.2604089268641
 20
80.95773025344491
 30
0.0
 10
-169.2604089268641
 20
77.19861183484501
 30
0.0
 10
-169.2604089268641
 20
77.19861183484501
 30
0.0
 10
-169.2604089268641
 20
77.19861183484501
 30
0.0
 10
-178.9121948055696
 20
77.19861183484501
 30
0.0
 10
-178.9121948055696
 20
77.19861183484501
 30
0.0
 10
-178.9121948055696
 20
77.19861183484501
 30
0.0
 10
-178.9121948055696
 20
81.46570991785636
 30
0.0
 10
-178.9121948055696
 20
81.46570991785636
 30
0.0
 10
-178.9121948055696
 20
84.03902568816584
 30
0.0
 10
-180.2506152845377
 20
85.39398263637217
 30
0.0
 10
-182.925733693595
 20
85.52971948803585
 30
0.0
 10
-182.925733693595
 20
85.52971948803585
 30
0.0
 10
-182.925733693595
 20
92.13379963516051
 30
0.0
 10
-182.925733693595
 20
92.13379963516051
 30
0.0
  0
SPLINE
  5
BE
330
7A
100
AcDbEntity
  8
Coordonn\U+00E9es
 62
     7
420
 16777215
370
     9
100
AcDbSpline
210
0.0
220
0.0
230
1.0
 70
    11
 71
     3
 72
    23
 73
    19
 74
     0
 42
0.0000000001
 43
0.0000000001
 40
0.0
 40
0.0
 40
0.0
 40
0.0
 40
1.0
 40
1.0
 40
1.0
 40
2.0
 40
2.0
 40
2.0
 40
3.0
 40
3.0
 40
3.0
 40
4.0
 40
4.0
 40
4.0
 40
5.0
 40
5.0
 40
5.0
 40
6.0
 40
6.0
 40
6.0
 40
6.0
 10
-182.925733693595
 20
56.67530321622774
 30
0.0
 10
-180.2506152845377
 20
56.91163692242391
 30
0.0
 10
-178.9121948055696
 20
58.19941446434999
 30
0.0
 10
-178.9121948055696
 20
60.53587976379961
 30
0.0
 10
-178.9121948055696
 20
60.53587976379961
 30
0.0
 10
-178.9121948055696
 20
66.07352989994722
 30
0.0
 10
-178.9121948055696
 20
66.07352989994722
 30
0.0
 10
-178.9121948055696
 20
66.07352989994722
 30
0.0
 10
-169.2604089268641
 20
66.07352989994722
 30
0.0
 10
-169.2604089268641
 20
66.07352989994722
 30
0.0
 10
-169.2604089268641
 20
66.07352989994722
 30
0.0
 10
-169.2604089268641
 20
61.75544437011804
 30
0.0
 10
-169.2604089268641
 20
61.75544437011804
 30
0.0
 10
-169.2604089268641
 20
54.23686302314245
 30
0.0
 10
-173.8155171824411
 20
50.37628647557059
 30
0.0
 10
-182.925733693595
 20
50.17302570785085
 30
0.0
 10
-182.925733693595
 20
50.17302570785085
 30
0.0
 10
-182.925733693595
 20
56.67530321622774
 30
0.0
 10
-182.925733693595
 20
56.67530321622774
 30
0.0
  0
POLYLINE
  5
BF
330
7A
100
AcDbEntity
  8
Coordonn\U+00E9es
 62
     7
420
 16777215
370
     9
100
AcDb2dPolyline
 66
     1
 10
0.0
 20
0.0
 30
0.0
  0
VERTEX
  5
C0
330
BF
100
AcDbEntity
  8
Coordonn\U+00E9es
 62
     7
420
 16777215
370
     9
100
AcDbVertex
100
AcDb2dVertex
 10
-151.7345076125614
 20
77.96049520401823
 30
0.0
  0
VERTEX
  5
C1
330
BF
100
AcDbEntity
  8
Coordonn\U+00E9es
 62
     7
420
 16777215
370
     9
100
AcDbVertex
100
AcDb2dVertex
 10
-155.8999753117129
 20
67.95317523669112
 30
0.0
  0
VERTEX
  5
C2
330
BF
100
AcDbEntity
  8
Coordonn\U+00E9es
 62
     7
420
 16777215
370
     9
100
AcDbVertex
100
AcDb2dVertex
 10
-166.6190524758349
 20
91.21929843530958
 30
0.0
  0
VERTEX
  5
C3
330
BF
100
AcDbEntity
  8
Coordonn\U+00E9es
 62
     7
420
 16777215
370
     9
100
AcDbVertex
100
AcDb2dVertex
 10
-157.0685524712135
 20
91.21929843530958
 30
0.0
  0
VERTEX
  5
C4
330
BF
100
AcDbEntity
  8
Coordonn\U+00E9es
 62
     7
420
 16777215
370
     9
100
AcDbVertex
100
AcDb2dVertex
 10
-151.7345076125614
 20
77.96049520401823
 30
0.0
  0
SEQEND
  5
C5
330
BF
100
AcDbEntity
  8
Coordonn\U+00E9es
370
     9
  0
POLYLINE
  5
C6
330
7A
100
AcDbEntity
  8
Coordonn\U+00E9es
 62
     7
420
 16777215
370
     9
100
AcDb2dPolyline
 66
     1
 10
0.0
 20
0.0
 30
0.0
  0
VERTEX
  5
C7
330
C6
100
AcDbEntity
  8
Coordonn\U+00E9es
 62
     7
420
 16777215
370
     9
100
AcDbVertex
100
AcDb2dVertex
 10
-134.6657707707402
 20
91.21929843530958
 30
0.0
  0
VERTEX
  5
C8
330
C6
100
AcDbEntity
  8
Coordonn\U+00E9es
 62
     7
420
 16777215
370
     9
100
AcDbVertex
100
AcDb2dVertex
 10
-145.9432982814278
 20
67.95317523669112
 30
0.0
  0
VERTEX
  5
C9
330
C6
100
AcDbEntity
  8
Coordonn\U+00E9es
 62
     7
420
 16777215
370
     9
100
AcDbVertex
100
AcDb2dVertex
 10
-145.9432982814278
 20
50.98572426895401
 30
0.0
  0
VERTEX
  5
CA
330
C6
100
AcDbEntity
  8
Coordonn\U+00E9es
 62
     7
420
 16777215
370
     9
100
AcDbVertex
100
AcDb2dVertex
 10
-155.1889071344696
 20
50.98572426895401
 30
0.0
  0
VERTEX
  5
CB
330
C6
100
AcDbEntity
  8
Coordonn\U+00E9es
 62
     7
420
 16777215
370
     9
100
AcDbVertex
100
AcDb2dVertex
 10
-155.1889071344696
 20
65.26048682906827
 30
0.0
  0
VERTEX
  5
CC
330
C6
100
AcDbEntity
  8
Coordonn\U+00E9es
 62
     7
420
 16777215
370
     9
100
AcDbVertex
100
AcDb2dVertex
 10
-144.4191870333056
 20
91.21929843530958
 30
0.0
  0
VERTEX
  5
CD
330
C6
100
AcDbEntity
  8
Coordonn\U+00E9es
 62
     7
420
 16777215
370
     9
100
AcDbVertex
100
AcDb2dVertex
 10
-134.6657707707402
 20
91.21929843530958
 30
0.0
  0
SEQEND
  5
CE
330
C6
100
AcDbEntity
  8
Coordonn\U+00E9es
370
     9
  0
ENDBLK
  5
7D
330
7A
100
AcDbEntity
  8
0
100
AcDbBlockEnd
  0
ENDSEC
  0
SECTION
  2
ENTITIES
  0
INSERT
  5
3D
330
1F
100
AcDbEntity
  8
Coordonn\U+00E9es
100
AcDbBlockReference
  2
block 2
 10
0.0
 20
0.0
 30
0.0
  0
INSERT
  5
5C
330
1F
100
AcDbEntity
  8
Coordonn\U+00E9es
100
AcDbBlockReference
  2
block 7
 10
0.0
 20
0.0
 30
0.0
  0
ENDSEC
  0
SECTION
  2
OBJECTS
  0
DICTIONARY
  5
C
330
0
100
AcDbDictionary
281
     1
  3
ACAD_GROUP
350
D
  3
ACAD_LAYOUT
350
1A
  3
ACAD_MLINESTYLE
350
17
  3
ACAD_PLOTSETTINGS
350
19
  3
ACAD_PLOTSTYLENAME
350
E
  3
ACAD_TABLESTYLE
350
CF
  3
ACAD_VISUALSTYLE
350
2A
  0
DICTIONARY
  5
D
102
{ACAD_REACTORS
330
C
102
}
330
C
100
AcDbDictionary
281
     1
  0
DICTIONARY
  5
1A
102
{ACAD_REACTORS
330
C
102
}
330
C
100
AcDbDictionary
281
     1
  3
Layout1
350
1E
  3
Layout2
350
26
  3
Model
350
22
  0
DICTIONARY
  5
17
102
{ACAD_REACTORS
330
C
102
}
330
C
100
AcDbDictionary
281
     1
  3
Standard
350
18
  0
DICTIONARY
  5
19
102
{ACAD_REACTORS
330
C
102
}
330
C
100
AcDbDictionary
281
     1
  0
ACDBDICTIONARYWDFLT
  5
E
102
{ACAD_REACTORS
330
C
102
}
330
C
100
AcDbDictionary
281
     1
  3
Normal
350
F
100
AcDbDictionaryWithDefault
340
F
  0
DICTIONARY
  5
CF
102
{ACAD_REACTORS
330
C
102
}
330
C
100
AcDbDictionary
281
     1
  0
DICTIONARY
  5
2A
102
{ACAD_REACTORS
330
C
102
}
330
C
100
AcDbDictionary
281
     1
  3
2dWireframe
350
2F
  3
3D Hidden
350
31
  3
3dWireframe
350
30
  3
Basic
350
32
  3
Brighten
350
36
  3
ColorChange
350
3A
  3
Conceptual
350
34
  3
Dim
350
35
  3
Facepattern
350
39
  3
Flat
350
2B
  3
FlatWithEdges
350
2C
  3
Gouraud
350
2D
  3
GouraudWithEdges
350
2E
  3
Linepattern
350
38
  3
Realistic
350
33
  3
Thicken
350
37
  0
LAYOUT
  5
1E
102
{ACAD_REACTORS
330
1A
102
}
330
1A
100
AcDbPlotSettings
  1

  2
none_device
  4

  6

 40
0.0
 41
0.0
 42
0.0
 43
0.0
 44
0.0
 45
0.0
 46
0.0
 47
0.0
 48
0.0
 49
0.0
140
0.0
141
0.0
142
1.0
143
1.0
 70
   688
 72
     0
 73
     0
 74
     5
  7

 75
    16
 76
     0
 77
     2
 78
   300
147
1.0
148
0.0
149
0.0
100
AcDbLayout
  1
Layout1
 70
     1
 71
     1
 10
0.0
 20
0.0
 11
12.0
 21
9.0
 12
0.0
 22
0.0
 32
0.0
 14
1.000000000000000E+20
 24
1.000000000000000E+20
 34
1.000000000000000E+20
 15
-1.000000000000000E+20
 25
-1.000000000000000E+20
 35
-1.000000000000000E+20
146
0.0
 13
0.0
 23
0.0
 33
0.0
 16
1.0
 26
0.0
 36
0.0
 17
0.0
 27
1.0
 37
0.0
 76
     0
330
1B
  0
LAYOUT
  5
26
102
{ACAD_REACTORS
330
1A
102
}
330
1A
100
AcDbPlotSettings
  1

  2
none_device
  4

  6

 40
0.0
 41
0.0
 42
0.0
 43
0.0
 44
0.0
 45
0.0
 46
0.0
 47
0.0
 48
0.0
 49
0.0
140
0.0
141
0.0
142
1.0
143
1.0
 70
   688
 72
     0
 73
     0
 74
     5
  7

 75
    16
 76
     0
 77
     2
 78
   300
147
1.0
148
0.0
149
0.0
100
AcDbLayout
  1
Layout2
 70
     1
 71
     2
 10
0.0
 20
0.0
 11
0.0
 21
0.0
 12
0.0
 22
0.0
 32
0.0
 14
0.0
 24
0.0
 34
0.0
 15
0.0
 25
0.0
 35
0.0
146
0.0
 13
0.0
 23
0.0
 33
0.0
 16
1.0
 26
0.0
 36
0.0
 17
0.0
 27
1.0
 37
0.0
 76
     0
330
23
  0
LAYOUT
  5
22
102
{ACAD_REACTORS
330
1A
102
}
330
1A
100
AcDbPlotSettings
  1

  2
none_device
  4

  6

 40
0.0
 41
0.0
 42
0.0
 43
0.0
 44
0.0
 45
0.0
 46
0.0
 47
0.0
 48
0.0
 49
0.0
140
0.0
141
0.0
142
1.0
143
1.0
 70
  1712
 72
     0
 73
     0
 74
     0
  7

 75
     0
 76
     0
 77
     2
 78
   300
147
1.0
148
0.0
149
0.0
100
AcDbLayout
  1
Model
 70
     1
 71
     0
 10
0.0
 20
0.0
 11
12.0
 21
9.0
 12
0.0
 22
0.0
 32
0.0
 14
1.000000000000000E+20
 24
1.000000000000000E+20
 34
1.000000000000000E+20
 15
-1.000000000000000E+20
 25
-1.000000000000000E+20
 35
-1.000000000000000E+20
146
0.0
 13
0.0
 23
0.0
 33
0.0
 16
1.0
 26
0.0
 36
0.0
 17
0.0
 27
1.0
 37
0.0
 76
     0
330
1F
331
29
  0
MLINESTYLE
  5
18
102
{ACAD_REACTORS
330
17
102
}
330
17
100
AcDbMlineStyle
  2
Standard
 70
     0
  3

 62
   256
 51
90.0
 52
90.0
 71
     2
 49
0.5
 62
   256
  6
BYLAYER
 49
-0.5
 62
   256
  6
BYLAYER
  0
ACDBPLACEHOLDER
  5
F
102
{ACAD_REACTORS
330
E
102
}
330
E
  0
VISUALSTYLE
  5
2F
102
{ACAD_REACTORS
330
2A
102
}
330
2A
100
AcDbVisualStyle
  2
2dWireframe
 70
     4
 71
     0
 72
     2
 73
     0
 90
        0
 40
-0.6
 41
-30.0
 62
     5
 63
     7
421
 16777215
 74
     1
 91
        4
 64
     7
 65
   257
 75
     1
175
     1
 42
1.0
 92
        0
 66
   257
 43
1.0
 76
     1
 77
     6
 78
     2
 67
     7
 79
     5
170
     0
171
     0
290
     0
174
     0
 93
        1
 44
0.0
173
     0
291
     0
 45
0.0
1001
ACAD
1000
AcDbSavedByObjectVersion
1070
     0
  0
VISUALSTYLE
  5
31
102
{ACAD_REACTORS
330
2A
102
}
330
2A
100
AcDbVisualStyle
  2
3D Hidden
 70
     6
 71
     1
 72
     2
 73
     2
 90
        0
 40
-0.6
 41
-30.0
 62
     5
 63
     7
421
 16777215
 74
     2
 91
        2
 64
     7
 65
   257
 75
     2
175
     1
 42
40.0
 92
        0
 66
   257
 43
1.0
 76
     1
 77
     6
 78
     2
 67
     7
 79
     3
170
     0
171
     0
290
     0
174
     0
 93
        1
 44
0.0
173
     0
291
     0
 45
0.0
1001
ACAD
1000
AcDbSavedByObjectVersion
1070
     0
  0
VISUALSTYLE
  5
30
102
{ACAD_REACTORS
330
2A
102
}
330
2A
100
AcDbVisualStyle
  2
3dWireframe
 70
     5
 71
     0
 72
     2
 73
     0
 90
        0
 40
-0.6
 41
-30.0
 62
     5
 63
     7
421
 16777215
 74
     1
 91
        4
 64
     7
 65
   257
 75
     1
175
     1
 42
1.0
 92
        0
 66
   257
 43
1.0
 76
     1
 77
     6
 78
     2
 67
     7
 79
     5
170
     0
171
     0
290
     0
174
     0
 93
        1
 44
0.0
173
     0
291
     0
 45
0.0
1001
ACAD
1000
AcDbSavedByObjectVersion
1070
     0
  0
VISUALSTYLE
  5
32
102
{ACAD_REACTORS
330
2A
102
}
330
2A
100
AcDbVisualStyle
  2
Basic
 70
     7
 71
     1
 72
     0
 73
     1
 90
        0
 40
-0.6
 41
-30.0
 62
     5
 63
     7
421
 16777215
 74
     0
 91
        4
 64
     7
 65
   257
 75
     1
175
     1
 42
1.0
 92
        8
 66
     7
 43
1.0
 76
     1
 77
     6
 78
     2
 67
     7
 79
     5
170
     0
171
     0
290
     0
174
     0
 93
        1
 44
0.0
173
     0
291
     1
 45
0.0
1001
ACAD
1000
AcDbSavedByObjectVersion
1070
     0
  0
VISUALSTYLE
  5
36
102
{ACAD_REACTORS
330
2A
102
}
330
2A
100
AcDbVisualStyle
  2
Brighten
 70
    12
 71
     2
 72
     2
 73
     0
 90
        0
 40
-0.6
 41
-30.0
 62
     5
 63
     7
421
 16777215
 74
     1
 91
        4
 64
     7
 65
   257
 75
     1
175
     1
 42
1.0
 92
        8
 66
     7
 43
1.0
 76
     1
 77
     6
 78
     2
 67
     7
 79
     5
170
     0
171
     0
290
     0
174
     0
 93
        1
 44
50.0
173
     0
291
     1
 45
0.0
1001
ACAD
1000
AcDbSavedByObjectVersion
1070
     0
  0
VISUALSTYLE
  5
3A
102
{ACAD_REACTORS
330
2A
102
}
330
2A
100
AcDbVisualStyle
  2
ColorChange
 70
    16
 71
     2
 72
     2
 73
     3
 90
        0
 40
-0.6
 41
-30.0
 62
     5
 63
     8
421
  8421504
 74
     1
 91
        4
 64
     7
 65
   257
 75
     1
175
     1
 42
1.0
 92
        8
 66
     8
424
  8421504
 43
1.0
 76
     1
 77
     6
 78
     2
 67
     7
 79
     5
170
     0
171
     0
290
     0
174
     0
 93
        1
 44
0.0
173
     0
291
     1
 45
0.0
1001
ACAD
1000
AcDbSavedByObjectVersion
1070
     0
  0
VISUALSTYLE
  5
34
102
{ACAD_REACTORS
330
2A
102
}
330
2A
100
AcDbVisualStyle
  2
Conceptual
 70
     9
 71
     3
 72
     2
 73
     0
 90
        0
 40
-0.6
 41
-30.0
 62
     5
 63
     7
421
 16777215
 74
     2
 91
        2
 64
     7
 65
   257
 75
     1
175
     1
 42
40.0
 92
        8
 66
     7
 43
1.0
 76
     1
 77
     6
 78
     2
 67
     7
 79
     3
170
     0
171
     0
290
     0
174
     0
 93
        1
 44
0.0
173
     0
291
     0
 45
0.0
1001
ACAD
1000
AcDbSavedByObjectVersion
1070
     0
  0
VISUALSTYLE
  5
35
102
{ACAD_REACTORS
330
2A
102
}
330
2A
100
AcDbVisualStyle
  2
Dim
 70
    11
 71
     2
 72
     2
 73
     0
 90
        0
 40
-0.6
 41
-30.0
 62
     5
 63
     7
421
 16777215
 74
     1
 91
        4
 64
     7
 65
   257
 75
     1
175
     1
 42
1.0
 92
        8
 66
     7
 43
1.0
 76
     1
 77
     6
 78
     2
 67
     7
 79
     5
170
     0
171
     0
290
     0
174
     0
 93
        1
 44
-50.0
173
     0
291
     1
 45
0.0
1001
ACAD
1000
AcDbSavedByObjectVersion
1070
     0
  0
VISUALSTYLE
  5
39
102
{ACAD_REACTORS
330
2A
102
}
330
2A
100
AcDbVisualStyle
  2
Facepattern
 70
    15
 71
     2
 72
     2
 73
     0
 90
        0
 40
-0.6
 41
-30.0
 62
     5
 63
     7
421
 16777215
 74
     1
 91
        4
 64
     7
 65
   257
 75
     1
175
     1
 42
1.0
 92
        8
 66
     7
 43
1.0
 76
     1
 77
     6
 78
     2
 67
     7
 79
     5
170
     0
171
     0
290
     0
174
     0
 93
        1
 44
0.0
173
     0
291
     1
 45
0.0
1001
ACAD
1000
AcDbSavedByObjectVersion
1070
     0
  0
VISUALSTYLE
  5
2B
102
{ACAD_REACTORS
330
2A
102
}
330
2A
100
AcDbVisualStyle
  2
Flat
 70
     0
 71
     2
 72
     1
 73
     1
 90
        2
 40
-0.6
 41
30.0
 62
     5
 63
     7
421
 16777215
 74
     0
 91
        4
 64
     7
 65
   257
 75
     1
175
     1
 42
1.0
 92
        8
 66
     7
 43
1.0
 76
     1
 77
     6
 78
     2
 67
     7
 79
     5
170
     0
171
     0
290
     0
174
     0
 93
       13
 44
0.0
173
     0
291
     1
 45
0.0
1001
ACAD
1000
AcDbSavedByObjectVersion
1070
     0
  0
VISUALSTYLE
  5
2C
102
{ACAD_REACTORS
330
2A
102
}
330
2A
100
AcDbVisualStyle
  2
FlatWithEdges
 70
     1
 71
     2
 72
     1
 73
     1
 90
        2
 40
-0.6
 41
30.0
 62
     5
 63
     7
421
 16777215
 74
     1
 91
        4
 64
     7
 65
   257
 75
     1
175
     1
 42
1.0
 92
        0
 66
   257
 43
1.0
 76
     1
 77
     6
 78
     2
 67
     7
 79
     5
170
     0
171
     0
290
     0
174
     0
 93
       13
 44
0.0
173
     0
291
     1
 45
0.0
1001
ACAD
1000
AcDbSavedByObjectVersion
1070
     0
  0
VISUALSTYLE
  5
2D
102
{ACAD_REACTORS
330
2A
102
}
330
2A
100
AcDbVisualStyle
  2
Gouraud
 70
     2
 71
     2
 72
     2
 73
     1
 90
        2
 40
-0.6
 41
30.0
 62
     5
 63
     7
421
 16777215
 74
     0
 91
        4
 64
     7
 65
   257
 75
     1
175
     1
 42
1.0
 92
        0
 66
     7
 43
1.0
 76
     1
 77
     6
 78
     2
 67
     7
 79
     5
170
     0
171
     0
290
     0
174
     0
 93
       13
 44
0.0
173
     0
291
     1
 45
0.0
1001
ACAD
1000
AcDbSavedByObjectVersion
1070
     0
  0
VISUALSTYLE
  5
2E
102
{ACAD_REACTORS
330
2A
102
}
330
2A
100
AcDbVisualStyle
  2
GouraudWithEdges
 70
     3
 71
     2
 72
     2
 73
     1
 90
        2
 40
-0.6
 41
30.0
 62
     5
 63
     7
421
 16777215
 74
     1
 91
        4
 64
     7
 65
   257
 75
     1
175
     1
 42
1.0
 92
        0
 66
   257
 43
1.0
 76
     1
 77
     6
 78
     2
 67
     7
 79
     5
170
     0
171
     0
290
     0
174
     0
 93
       13
 44
0.0
173
     0
291
     1
 45
0.0
1001
ACAD
1000
AcDbSavedByObjectVersion
1070
     0
  0
VISUALSTYLE
  5
38
102
{ACAD_REACTORS
330
2A
102
}
330
2A
100
AcDbVisualStyle
  2
Linepattern
 70
    14
 71
     2
 72
     2
 73
     0
 90
        0
 40
-0.6
 41
-30.0
 62
     5
 63
     7
421
 16777215
 74
     1
 91
        4
 64
     7
 65
   257
 75
     7
175
     7
 42
1.0
 92
        8
 66
     7
 43
1.0
 76
     1
 77
     6
 78
     2
 67
     7
 79
     5
170
     0
171
     0
290
     0
174
     0
 93
        1
 44
0.0
173
     0
291
     1
 45
0.0
1001
ACAD
1000
AcDbSavedByObjectVersion
1070
     0
  0
VISUALSTYLE
  5
33
102
{ACAD_REACTORS
330
2A
102
}
330
2A
100
AcDbVisualStyle
  2
Realistic
 70
     8
 71
     2
 72
     2
 73
     0
 90
        0
 40
-0.6
 41
-30.0
 62
     5
 63
     7
421
 16777215
 74
     1
 91
        0
 64
     7
 65
   257
 75
     1
175
     1
 42
1.0
 92
        8
 66
     8
424
  7895160
 43
1.0
 76
     1
 77
     6
 78
     2
 67
     7
 79
     5
170
     0
171
     0
290
     0
174
     0
 93
       13
 44
0.0
173
     0
291
     0
 45
0.0
1001
ACAD
1000
AcDbSavedByObjectVersion
1070
     0
  0
VISUALSTYLE
  5
37
102
{ACAD_REACTORS
330
2A
102
}
330
2A
100
AcDbVisualStyle
  2
Thicken
 70
    13
 71
     2
 72
     2
 73
     0
 90
        0
 40
-0.6
 41
-30.0
 62
     5
 63
     7
421
 16777215
 74
     1
 91
        4
 64
     7
 65
   257
 75
     1
175
     1
 42
1.0
 92
       12
 66
     7
 43
1.0
 76
     1
 77
     6
 78
     2
 67
     7
 79
     5
170
     0
171
     0
290
     0
174
     0
 93
        1
 44
0.0
173
     0
291
     1
 45
0.0
1001
ACAD
1000
AcDbSavedByObjectVersion
1070
     0
  0
ENDSEC
  0
EOF
